ISO-10303-21;
HEADER;
FILE_DESCRIPTION (( 'STEP AP203' ),
    '1' );
FILE_NAME ('Web Model 65827.STEP',
    '2017-01-31T19:19:40',
    ( '' ),
    ( '' ),
    'SwSTEP 2.0',
    'SolidWorks 2016',
    '' );
FILE_SCHEMA (( 'CONFIG_CONTROL_DESIGN' ));
ENDSEC;

DATA;
#1 = AXIS2_PLACEMENT_3D ( 'NONE', #8, #100, #16 ) ;
#2 = APPROVAL_PERSON_ORGANIZATION ( #46, #150, #141 ) ;
#3 = EDGE_CURVE ( 'NONE', #15, #113, #79, .T. ) ;
#4 = PLANE ( 'NONE',  #153 ) ;
#5 = ADVANCED_BREP_SHAPE_REPRESENTATION ( 'Web Model 65827', ( #59, #128 ), #20 ) ;
#6 = AXIS2_PLACEMENT_3D ( 'NONE', #53, #126, #114 ) ;
#7 = CARTESIAN_POINT ( 'NONE',  ( -1.000000000000000900, 23.56504871876376900, 1.530808498934191500E-015 ) ) ;
#8 = CARTESIAN_POINT ( 'NONE',  ( 28.27234696859688200, -41.23923370877872700, 0.0000000000000000000 ) ) ;
#9 = APPROVAL_STATUS ( 'not_yet_approved' ) ;
#10 = CYLINDRICAL_SURFACE ( 'NONE', #1, 12.50000000000000000 ) ;
#11 = SECURITY_CLASSIFICATION_LEVEL ( 'unclassified' ) ;
#12 = ORIENTED_EDGE ( 'NONE', *, *, #26, .F. ) ;
#13 = DATE_AND_TIME ( #174, #159 ) ;
#14 = PERSON_AND_ORGANIZATION ( #67, #157 ) ;
#15 = VERTEX_POINT ( 'NONE', #163 ) ;
#16 = DIRECTION ( 'NONE',  ( -0.8247846741755744400, -0.5654469393719374600, 0.0000000000000000000 ) ) ;
#17 = APPROVAL_ROLE ( '' ) ;
#18 = PERSON_AND_ORGANIZATION_ROLE ( 'design_supplier' ) ;
#19 = PERSON_AND_ORGANIZATION_ROLE ( 'classification_officer' ) ;
#20 =( GEOMETRIC_REPRESENTATION_CONTEXT ( 3 ) GLOBAL_UNCERTAINTY_ASSIGNED_CONTEXT ( ( #82 ) ) GLOBAL_UNIT_ASSIGNED_CONTEXT ( ( #156, #127, #171 ) ) REPRESENTATION_CONTEXT ( 'NONE', 'WORKASPACE' ) );
#21 = CARTESIAN_POINT ( 'NONE',  ( -1.000000000000000900, -20.64776464931000200, 25.00000000000000000 ) ) ;
#22 = PLANE ( 'NONE',  #6 ) ;
#23 = ORIENTED_EDGE ( 'NONE', *, *, #29, .T. ) ;
#24 = DIRECTION ( 'NONE',  ( -0.5654469393719374600, 0.8247846741755743300, -0.0000000000000000000 ) ) ;
#25 = PERSON_AND_ORGANIZATION_ROLE ( 'creator' ) ;
#26 = EDGE_CURVE ( 'NONE', #42, #15, #76, .T. ) ;
#27 = CC_DESIGN_APPROVAL ( #150, ( #148 ) ) ;
#28 = LINE ( 'NONE', #102, #105 ) ;
#29 = EDGE_CURVE ( 'NONE', #173, #113, #28, .T. ) ;
#30 = PRODUCT_DEFINITION_SHAPE ( 'NONE', 'NONE',  #148 ) ;
#31 = ADVANCED_FACE ( 'NONE', ( #81 ), #10, .T. ) ;
#32 = PERSON_AND_ORGANIZATION ( #67, #157 ) ;
#33 = DIRECTION ( 'NONE',  ( 1.000000000000000000, 1.814654048273309300E-016, 0.0000000000000000000 ) ) ;
#34 = CARTESIAN_POINT ( 'NONE',  ( 0.9999999999999974500, 20.64776464931000200, 1.530808498934191500E-015 ) ) ;
#35 = FACE_OUTER_BOUND ( 'NONE', #54, .T. ) ;
#36 = CARTESIAN_POINT ( 'NONE',  ( 38.58215539579156000, -34.17114696662950700, 1.530808498934191500E-015 ) ) ;
#37 = PERSON_AND_ORGANIZATION ( #67, #157 ) ;
#38 = APPLICATION_CONTEXT ( 'configuration controlled 3d designs of mechanical parts and assemblies' ) ;
#39 = CALENDAR_DATE ( 2017, 31, 1 ) ;
#40 = MECHANICAL_CONTEXT ( 'NONE', #38, 'mechanical' ) ;
#41 = APPROVAL_STATUS ( 'not_yet_approved' ) ;
#42 = VERTEX_POINT ( 'NONE', #84 ) ;
#43 = APPROVAL_DATE_TIME ( #49, #75 ) ;
#44 = EDGE_LOOP ( 'NONE', ( #12, #93, #23, #121 ) ) ;
#45 = COORDINATED_UNIVERSAL_TIME_OFFSET ( 5, 0, .BEHIND. ) ;
#46 = PERSON_AND_ORGANIZATION ( #67, #157 ) ;
#47 = ORIENTED_EDGE ( 'NONE', *, *, #29, .F. ) ;
#48 = APPROVAL_DATE_TIME ( #123, #107 ) ;
#49 = DATE_AND_TIME ( #98, #62 ) ;
#50 = CARTESIAN_POINT ( 'NONE',  ( 0.9999999999999906700, 20.64776464930999500, -12.50000000000000000 ) ) ;
#51 = COORDINATED_UNIVERSAL_TIME_OFFSET ( 5, 0, .BEHIND. ) ;
#52 = CARTESIAN_POINT ( 'NONE',  ( -1.000000000000000900, 23.56504871876378000, 25.00000000000000000 ) ) ;
#53 = CARTESIAN_POINT ( 'NONE',  ( -1.000000000000001100, 23.56504871876375900, -12.50000000000000000 ) ) ;
#54 = EDGE_LOOP ( 'NONE', ( #60, #133 ) ) ;
#55 = CC_DESIGN_PERSON_AND_ORGANIZATION_ASSIGNMENT ( #37, #70, ( #148 ) ) ;
#56 = APPLICATION_CONTEXT ( 'configuration controlled 3d designs of mechanical parts and assemblies' ) ;
#57 = VECTOR ( 'NONE', #88, 1000.000000000000100 ) ;
#58 = CC_DESIGN_DATE_AND_TIME_ASSIGNMENT ( #168, #143, ( #148 ) ) ;
#59 = MANIFOLD_SOLID_BREP ( 'Cut-Extrude1', #149 ) ;
#60 = ORIENTED_EDGE ( 'NONE', *, *, #134, .T. ) ;
#61 = PERSON_AND_ORGANIZATION ( #67, #157 ) ;
#62 = LOCAL_TIME ( 14, 19, 40.00000000000000000, #96 ) ;
#63 = AXIS2_PLACEMENT_3D ( 'NONE', #139, #140, #119 ) ;
#64 = ADVANCED_FACE ( 'NONE', ( #35 ), #22, .T. ) ;
#65 = PRODUCT_DEFINITION_FORMATION_WITH_SPECIFIED_SOURCE ( 'ANY', '', #129, .NOT_KNOWN. ) ;
#66 = CARTESIAN_POINT ( 'NONE',  ( -1.000000000000000900, 23.56504871876376900, 1.530808498934191500E-015 ) ) ;
#67 = PERSON ( 'UNSPECIFIED', 'UNSPECIFIED', 'UNSPECIFIED', ('UNSPECIFIED'), ('UNSPECIFIED'), ('UNSPECIFIED') ) ;
#68 = EDGE_CURVE ( 'NONE', #42, #173, #109, .T. ) ;
#69 = CARTESIAN_POINT ( 'NONE',  ( -1.000000000000000900, 23.56504871876378000, -25.00000000000000000 ) ) ;
#70 = PERSON_AND_ORGANIZATION_ROLE ( 'creator' ) ;
#71 = APPLICATION_PROTOCOL_DEFINITION ( 'international standard', 'config_control_design', 1994, #56 ) ;
#72 = CC_DESIGN_PERSON_AND_ORGANIZATION_ASSIGNMENT ( #14, #18, ( #65 ) ) ;
#73 = APPLICATION_PROTOCOL_DEFINITION ( 'international standard', 'config_control_design', 1994, #38 ) ;
#74 = COORDINATED_UNIVERSAL_TIME_OFFSET ( 5, 0, .BEHIND. ) ;
#75 = APPROVAL ( #144, 'UNSPECIFIED' ) ;
#76 = LINE ( 'NONE', #36, #57 ) ;
#77 = COORDINATED_UNIVERSAL_TIME_OFFSET ( 5, 0, .BEHIND. ) ;
#78 = CC_DESIGN_PERSON_AND_ORGANIZATION_ASSIGNMENT ( #118, #25, ( #65 ) ) ;
#79 =( BOUNDED_CURVE ( )  B_SPLINE_CURVE ( 3, ( #7, #69, #166, #165 ),
 .UNSPECIFIED., .F., .F. ) 
 B_SPLINE_CURVE_WITH_KNOTS ( ( 4, 4 ),
 ( 0.0000000000000000000, 3.141592653589793100 ),
 .UNSPECIFIED. ) 
 CURVE ( )  GEOMETRIC_REPRESENTATION_ITEM ( )  RATIONAL_B_SPLINE_CURVE ( ( 1.000000000000000000, 0.3333333333333333700, 0.3333333333333333700, 1.000000000000000000 ) ) 
 REPRESENTATION_ITEM ( '' )  );
#80 = LOCAL_TIME ( 14, 19, 40.00000000000000000, #45 ) ;
#81 = FACE_OUTER_BOUND ( 'NONE', #170, .T. ) ;
#82 = UNCERTAINTY_MEASURE_WITH_UNIT (LENGTH_MEASURE( 1.000000000000000100E-005 ), #156, 'distance_accuracy_value', 'NONE');
#83 = ADVANCED_FACE ( 'NONE', ( #110 ), #4, .T. ) ;
#84 = CARTESIAN_POINT ( 'NONE',  ( 0.9999999999999974500, 20.64776464931000200, 1.530808498934191500E-015 ) ) ;
#85 = SHAPE_DEFINITION_REPRESENTATION ( #30, #5 ) ;
#86 = ORIENTED_EDGE ( 'NONE', *, *, #26, .T. ) ;
#87 = CARTESIAN_POINT ( 'NONE',  ( 1.000000000000001600, -23.56504871876376900, 25.00000000000000000 ) ) ;
#88 = DIRECTION ( 'NONE',  ( -0.5654469393719374600, 0.8247846741755743300, -0.0000000000000000000 ) ) ;
#89 = CC_DESIGN_APPROVAL ( #75, ( #65 ) ) ;
#90 = DIRECTION ( 'NONE',  ( 1.000000000000000000, 0.0000000000000000000, 0.0000000000000000000 ) ) ;
#91 = PERSON_AND_ORGANIZATION ( #67, #157 ) ;
#92 = CC_DESIGN_PERSON_AND_ORGANIZATION_ASSIGNMENT ( #61, #19, ( #142 ) ) ;
#93 = ORIENTED_EDGE ( 'NONE', *, *, #130, .F. ) ;
#94 = PRODUCT_RELATED_PRODUCT_CATEGORY ( 'detail', '', ( #129 ) ) ;
#95 = CYLINDRICAL_SURFACE ( 'NONE', #63, 12.50000000000000000 ) ;
#96 = COORDINATED_UNIVERSAL_TIME_OFFSET ( 5, 0, .BEHIND. ) ;
#97 = APPROVAL_PERSON_ORGANIZATION ( #155, #107, #103 ) ;
#98 = CALENDAR_DATE ( 2017, 31, 1 ) ;
#99 = CC_DESIGN_APPROVAL ( #107, ( #142 ) ) ;
#100 = DIRECTION ( 'NONE',  ( -0.5654469393719375700, 0.8247846741755744400, -0.0000000000000000000 ) ) ;
#101 = CC_DESIGN_DATE_AND_TIME_ASSIGNMENT ( #116, #115, ( #142 ) ) ;
#102 = CARTESIAN_POINT ( 'NONE',  ( 17.96253854140220000, -48.30732045092793900, 0.0000000000000000000 ) ) ;
#103 = APPROVAL_ROLE ( '' ) ;
#104 = PERSON_AND_ORGANIZATION_ROLE ( 'design_owner' ) ;
#105 = VECTOR ( 'NONE', #24, 1000.000000000000100 ) ;
#106 = CC_DESIGN_SECURITY_CLASSIFICATION ( #142, ( #65 ) ) ;
#107 = APPROVAL ( #9, 'UNSPECIFIED' ) ;
#108 = LOCAL_TIME ( 14, 19, 40.00000000000000000, #51 ) ;
#109 =( BOUNDED_CURVE ( )  B_SPLINE_CURVE ( 3, ( #152, #111, #87, #138 ),
 .UNSPECIFIED., .F., .F. ) 
 B_SPLINE_CURVE_WITH_KNOTS ( ( 4, 4 ),
 ( 1.224646799147353700E-016, 3.141592653589793100 ),
 .UNSPECIFIED. ) 
 CURVE ( )  GEOMETRIC_REPRESENTATION_ITEM ( )  RATIONAL_B_SPLINE_CURVE ( ( 1.000000000000000000, 0.3333333333333333700, 0.3333333333333333700, 1.000000000000000000 ) ) 
 REPRESENTATION_ITEM ( '' )  );
#110 = FACE_OUTER_BOUND ( 'NONE', #175, .T. ) ;
#111 = CARTESIAN_POINT ( 'NONE',  ( 0.9999999999999933400, 20.64776464931000200, 25.00000000000000000 ) ) ;
#112 = DIRECTION ( 'NONE',  ( -1.814654048273309300E-016, 1.000000000000000000, 0.0000000000000000000 ) ) ;
#113 = VERTEX_POINT ( 'NONE', #137 ) ;
#114 = DIRECTION ( 'NONE',  ( -0.0000000000000000000, 0.0000000000000000000, 1.000000000000000000 ) ) ;
#115 = DATE_TIME_ROLE ( 'classification_date' ) ;
#116 = DATE_AND_TIME ( #131, #146 ) ;
#117 = CARTESIAN_POINT ( 'NONE',  ( 0.0000000000000000000, 0.0000000000000000000, 0.0000000000000000000 ) ) ;
#118 = PERSON_AND_ORGANIZATION ( #67, #157 ) ;
#119 = DIRECTION ( 'NONE',  ( -0.8247846741755744400, -0.5654469393719374600, 0.0000000000000000000 ) ) ;
#120 = FACE_OUTER_BOUND ( 'NONE', #44, .T. ) ;
#121 = ORIENTED_EDGE ( 'NONE', *, *, #3, .F. ) ;
#122 = CARTESIAN_POINT ( 'NONE',  ( 1.000000000000000900, -23.56504871876377300, 0.0000000000000000000 ) ) ;
#123 = DATE_AND_TIME ( #158, #108 ) ;
#124 = CARTESIAN_POINT ( 'NONE',  ( 0.9999999999999933400, 20.64776464931000900, -25.00000000000000000 ) ) ;
#125 = CARTESIAN_POINT ( 'NONE',  ( 1.000000000000001600, -23.56504871876378400, -25.00000000000000000 ) ) ;
#126 = DIRECTION ( 'NONE',  ( -1.000000000000000000, 0.0000000000000000000, -0.0000000000000000000 ) ) ;
#127 =( NAMED_UNIT ( * ) PLANE_ANGLE_UNIT ( ) SI_UNIT ( $, .RADIAN. ) );
#128 = AXIS2_PLACEMENT_3D ( 'NONE', #117, #154, #90 ) ;
#129 = PRODUCT ( 'Web Model 65827', 'Web Model 65827', '', ( #40 ) ) ;
#130 = EDGE_CURVE ( 'NONE', #173, #42, #167, .T. ) ;
#131 = CALENDAR_DATE ( 2017, 31, 1 ) ;
#132 = DESIGN_CONTEXT ( 'detailed design', #56, 'design' ) ;
#133 = ORIENTED_EDGE ( 'NONE', *, *, #3, .T. ) ;
#134 = EDGE_CURVE ( 'NONE', #113, #15, #136, .T. ) ;
#135 = CC_DESIGN_PERSON_AND_ORGANIZATION_ASSIGNMENT ( #91, #104, ( #129 ) ) ;
#136 =( BOUNDED_CURVE ( )  B_SPLINE_CURVE ( 3, ( #164, #21, #52, #66 ),
 .UNSPECIFIED., .F., .T. ) 
 B_SPLINE_CURVE_WITH_KNOTS ( ( 4, 4 ),
 ( 3.141592653589793100, 6.283185307179586200 ),
 .UNSPECIFIED. ) 
 CURVE ( )  GEOMETRIC_REPRESENTATION_ITEM ( )  RATIONAL_B_SPLINE_CURVE ( ( 1.000000000000000000, 0.3333333333333333700, 0.3333333333333333700, 1.000000000000000000 ) ) 
 REPRESENTATION_ITEM ( '' )  );
#137 = CARTESIAN_POINT ( 'NONE',  ( -1.000000000000000900, -20.64776464930999500, 0.0000000000000000000 ) ) ;
#138 = CARTESIAN_POINT ( 'NONE',  ( 1.000000000000000900, -23.56504871876377300, 0.0000000000000000000 ) ) ;
#139 = CARTESIAN_POINT ( 'NONE',  ( 28.27234696859688200, -41.23923370877872700, 0.0000000000000000000 ) ) ;
#140 = DIRECTION ( 'NONE',  ( -0.5654469393719375700, 0.8247846741755744400, -0.0000000000000000000 ) ) ;
#141 = APPROVAL_ROLE ( '' ) ;
#142 = SECURITY_CLASSIFICATION ( '', '', #11 ) ;
#143 = DATE_TIME_ROLE ( 'creation_date' ) ;
#144 = APPROVAL_STATUS ( 'not_yet_approved' ) ;
#145 = ORIENTED_EDGE ( 'NONE', *, *, #134, .F. ) ;
#146 = LOCAL_TIME ( 14, 19, 40.00000000000000000, #77 ) ;
#147 = ORIENTED_EDGE ( 'NONE', *, *, #68, .F. ) ;
#148 = PRODUCT_DEFINITION ( 'UNKNOWN', '', #65, #132 ) ;
#149 = CLOSED_SHELL ( 'NONE', ( #31, #161, #83, #64 ) ) ;
#150 = APPROVAL ( #41, 'UNSPECIFIED' ) ;
#151 = ORIENTED_EDGE ( 'NONE', *, *, #130, .T. ) ;
#152 = CARTESIAN_POINT ( 'NONE',  ( 0.9999999999999974500, 20.64776464931000200, 1.530808498934191500E-015 ) ) ;
#153 = AXIS2_PLACEMENT_3D ( 'NONE', #50, #33, #112 ) ;
#154 = DIRECTION ( 'NONE',  ( 0.0000000000000000000, 0.0000000000000000000, 1.000000000000000000 ) ) ;
#155 = PERSON_AND_ORGANIZATION ( #67, #157 ) ;
#156 =( LENGTH_UNIT ( ) NAMED_UNIT ( * ) SI_UNIT ( .MILLI., .METRE. ) );
#157 = ORGANIZATION ( 'UNSPECIFIED', 'UNSPECIFIED', '' ) ;
#158 = CALENDAR_DATE ( 2017, 31, 1 ) ;
#159 = LOCAL_TIME ( 14, 19, 40.00000000000000000, #74 ) ;
#160 = APPROVAL_PERSON_ORGANIZATION ( #32, #75, #17 ) ;
#161 = ADVANCED_FACE ( 'NONE', ( #120 ), #95, .T. ) ;
#162 = APPROVAL_DATE_TIME ( #13, #150 ) ;
#163 = CARTESIAN_POINT ( 'NONE',  ( -1.000000000000000900, 23.56504871876376900, 1.530808498934191500E-015 ) ) ;
#164 = CARTESIAN_POINT ( 'NONE',  ( -1.000000000000000900, -20.64776464930999500, 0.0000000000000000000 ) ) ;
#165 = CARTESIAN_POINT ( 'NONE',  ( -1.000000000000000900, -20.64776464930999500, 0.0000000000000000000 ) ) ;
#166 = CARTESIAN_POINT ( 'NONE',  ( -1.000000000000000900, -20.64776464930998800, -25.00000000000000000 ) ) ;
#167 =( BOUNDED_CURVE ( )  B_SPLINE_CURVE ( 3, ( #122, #125, #124, #34 ),
 .UNSPECIFIED., .F., .T. ) 
 B_SPLINE_CURVE_WITH_KNOTS ( ( 4, 4 ),
 ( 3.141592653589793100, 6.283185307179586200 ),
 .UNSPECIFIED. ) 
 CURVE ( )  GEOMETRIC_REPRESENTATION_ITEM ( )  RATIONAL_B_SPLINE_CURVE ( ( 1.000000000000000000, 0.3333333333333333700, 0.3333333333333333700, 1.000000000000000000 ) ) 
 REPRESENTATION_ITEM ( '' )  );
#168 = DATE_AND_TIME ( #39, #80 ) ;
#169 = CARTESIAN_POINT ( 'NONE',  ( 1.000000000000000900, -23.56504871876377300, 0.0000000000000000000 ) ) ;
#170 = EDGE_LOOP ( 'NONE', ( #147, #86, #145, #47 ) ) ;
#171 =( NAMED_UNIT ( * ) SI_UNIT ( $, .STERADIAN. ) SOLID_ANGLE_UNIT ( ) );
#172 = ORIENTED_EDGE ( 'NONE', *, *, #68, .T. ) ;
#173 = VERTEX_POINT ( 'NONE', #169 ) ;
#174 = CALENDAR_DATE ( 2017, 31, 1 ) ;
#175 = EDGE_LOOP ( 'NONE', ( #151, #172 ) ) ;
ENDSEC;
END-ISO-10303-21;
